ISO-10303-21;
HEADER;
/* Generated by software containing ST-Developer
 * from STEP Tools, Inc. (www.steptools.com) 
 */

FILE_DESCRIPTION(
/* description */ (''),
/* implementation_level */ '2;1');

FILE_NAME(
/* name */ 
'O:\\31_ROTU\\ROTU_2020\\ROTU_S\\CE\\00_Technische_Unterlagen\\Konstru
ktionen_Bildmaterial\\ROTU_S Spannpratzen\\Spannpratze_ROTU.stp',
/* time_stamp */ '2019-12-12T12:19:49+01:00',
/* author */ ('User'),
/* organization */ (''),
/* preprocessor_version */ 'ST-DEVELOPER v17',
/* originating_system */ 'Autodesk Inventor 2019',
/* authorisation */ '');

FILE_SCHEMA (('AUTOMOTIVE_DESIGN { 1 0 10303 214 3 1 1 }'));
ENDSEC;

DATA;
#10=MECHANICAL_DESIGN_GEOMETRIC_PRESENTATION_REPRESENTATION('',(#13),#494);
#11=SHAPE_REPRESENTATION_RELATIONSHIP('SRR','None',#501,#12);
#12=ADVANCED_BREP_SHAPE_REPRESENTATION('',(#14),#493);
#13=STYLED_ITEM('',(#510),#14);
#14=MANIFOLD_SOLID_BREP('Volumenk\X\F6rper1',#296);
#15=FACE_BOUND('',#55,.T.);
#16=FACE_BOUND('',#59,.T.);
#17=PLANE('',#319);
#18=PLANE('',#323);
#19=PLANE('',#324);
#20=PLANE('',#325);
#21=PLANE('',#326);
#22=PLANE('',#327);
#23=PLANE('',#328);
#24=PLANE('',#329);
#25=PLANE('',#330);
#26=PLANE('',#331);
#27=PLANE('',#332);
#28=PLANE('',#333);
#29=PLANE('',#334);
#30=FACE_OUTER_BOUND('',#45,.T.);
#31=FACE_OUTER_BOUND('',#46,.T.);
#32=FACE_OUTER_BOUND('',#47,.T.);
#33=FACE_OUTER_BOUND('',#48,.T.);
#34=FACE_OUTER_BOUND('',#49,.T.);
#35=FACE_OUTER_BOUND('',#50,.T.);
#36=FACE_OUTER_BOUND('',#51,.T.);
#37=FACE_OUTER_BOUND('',#52,.T.);
#38=FACE_OUTER_BOUND('',#53,.T.);
#39=FACE_OUTER_BOUND('',#54,.T.);
#40=FACE_OUTER_BOUND('',#56,.T.);
#41=FACE_OUTER_BOUND('',#57,.T.);
#42=FACE_OUTER_BOUND('',#58,.T.);
#43=FACE_OUTER_BOUND('',#60,.T.);
#44=FACE_OUTER_BOUND('',#61,.T.);
#45=EDGE_LOOP('',(#201,#202,#203,#204));
#46=EDGE_LOOP('',(#205,#206,#207,#208));
#47=EDGE_LOOP('',(#209,#210,#211,#212));
#48=EDGE_LOOP('',(#213,#214,#215,#216));
#49=EDGE_LOOP('',(#217,#218,#219,#220));
#50=EDGE_LOOP('',(#221,#222,#223,#224));
#51=EDGE_LOOP('',(#225,#226,#227,#228,#229,#230,#231,#232,#233));
#52=EDGE_LOOP('',(#234,#235,#236,#237));
#53=EDGE_LOOP('',(#238,#239,#240,#241));
#54=EDGE_LOOP('',(#242,#243,#244,#245));
#55=EDGE_LOOP('',(#246,#247,#248,#249));
#56=EDGE_LOOP('',(#250,#251,#252,#253));
#57=EDGE_LOOP('',(#254,#255,#256,#257));
#58=EDGE_LOOP('',(#258,#259,#260,#261));
#59=EDGE_LOOP('',(#262,#263,#264,#265));
#60=EDGE_LOOP('',(#266,#267,#268,#269));
#61=EDGE_LOOP('',(#270,#271,#272,#273,#274,#275,#276,#277,#278));
#62=LINE('',#416,#97);
#63=LINE('',#419,#98);
#64=LINE('',#422,#99);
#65=LINE('',#424,#100);
#66=LINE('',#425,#101);
#67=LINE('',#431,#102);
#68=LINE('',#433,#103);
#69=LINE('',#434,#104);
#70=LINE('',#438,#105);
#71=LINE('',#440,#106);
#72=LINE('',#442,#107);
#73=LINE('',#443,#108);
#74=LINE('',#446,#109);
#75=LINE('',#448,#110);
#76=LINE('',#449,#111);
#77=LINE('',#452,#112);
#78=LINE('',#454,#113);
#79=LINE('',#456,#114);
#80=LINE('',#458,#115);
#81=LINE('',#460,#116);
#82=LINE('',#462,#117);
#83=LINE('',#463,#118);
#84=LINE('',#466,#119);
#85=LINE('',#468,#120);
#86=LINE('',#469,#121);
#87=LINE('',#472,#122);
#88=LINE('',#473,#123);
#89=LINE('',#476,#124);
#90=LINE('',#477,#125);
#91=LINE('',#480,#126);
#92=LINE('',#481,#127);
#93=LINE('',#483,#128);
#94=LINE('',#486,#129);
#95=LINE('',#487,#130);
#96=LINE('',#489,#131);
#97=VECTOR('',#341,10.);
#98=VECTOR('',#344,10.);
#99=VECTOR('',#347,10.);
#100=VECTOR('',#348,10.);
#101=VECTOR('',#349,10.);
#102=VECTOR('',#356,10.);
#103=VECTOR('',#359,10.);
#104=VECTOR('',#360,10.);
#105=VECTOR('',#363,10.);
#106=VECTOR('',#364,10.);
#107=VECTOR('',#365,10.);
#108=VECTOR('',#366,10.);
#109=VECTOR('',#369,10.);
#110=VECTOR('',#370,10.);
#111=VECTOR('',#371,10.);
#112=VECTOR('',#374,10.);
#113=VECTOR('',#375,10.);
#114=VECTOR('',#376,10.);
#115=VECTOR('',#377,10.);
#116=VECTOR('',#378,10.);
#117=VECTOR('',#379,10.);
#118=VECTOR('',#380,10.);
#119=VECTOR('',#383,10.);
#120=VECTOR('',#384,10.);
#121=VECTOR('',#385,10.);
#122=VECTOR('',#388,10.);
#123=VECTOR('',#389,10.);
#124=VECTOR('',#392,10.);
#125=VECTOR('',#393,10.);
#126=VECTOR('',#396,10.);
#127=VECTOR('',#397,10.);
#128=VECTOR('',#400,10.);
#129=VECTOR('',#403,10.);
#130=VECTOR('',#404,10.);
#131=VECTOR('',#407,10.);
#132=CIRCLE('',#317,4.25);
#133=CIRCLE('',#318,4.25);
#134=CIRCLE('',#321,4.25);
#135=CIRCLE('',#322,4.25);
#136=VERTEX_POINT('',#412);
#137=VERTEX_POINT('',#413);
#138=VERTEX_POINT('',#415);
#139=VERTEX_POINT('',#417);
#140=VERTEX_POINT('',#421);
#141=VERTEX_POINT('',#423);
#142=VERTEX_POINT('',#427);
#143=VERTEX_POINT('',#429);
#144=VERTEX_POINT('',#436);
#145=VERTEX_POINT('',#437);
#146=VERTEX_POINT('',#439);
#147=VERTEX_POINT('',#441);
#148=VERTEX_POINT('',#445);
#149=VERTEX_POINT('',#447);
#150=VERTEX_POINT('',#451);
#151=VERTEX_POINT('',#453);
#152=VERTEX_POINT('',#455);
#153=VERTEX_POINT('',#457);
#154=VERTEX_POINT('',#459);
#155=VERTEX_POINT('',#461);
#156=VERTEX_POINT('',#465);
#157=VERTEX_POINT('',#467);
#158=VERTEX_POINT('',#471);
#159=VERTEX_POINT('',#475);
#160=VERTEX_POINT('',#479);
#161=VERTEX_POINT('',#485);
#162=EDGE_CURVE('',#136,#137,#132,.T.);
#163=EDGE_CURVE('',#138,#136,#62,.T.);
#164=EDGE_CURVE('',#139,#138,#133,.T.);
#165=EDGE_CURVE('',#139,#137,#63,.T.);
#166=EDGE_CURVE('',#137,#140,#64,.T.);
#167=EDGE_CURVE('',#141,#139,#65,.T.);
#168=EDGE_CURVE('',#141,#140,#66,.T.);
#169=EDGE_CURVE('',#140,#142,#134,.T.);
#170=EDGE_CURVE('',#143,#141,#135,.T.);
#171=EDGE_CURVE('',#143,#142,#67,.T.);
#172=EDGE_CURVE('',#142,#136,#68,.T.);
#173=EDGE_CURVE('',#138,#143,#69,.T.);
#174=EDGE_CURVE('',#144,#145,#70,.T.);
#175=EDGE_CURVE('',#145,#146,#71,.T.);
#176=EDGE_CURVE('',#146,#147,#72,.T.);
#177=EDGE_CURVE('',#147,#144,#73,.T.);
#178=EDGE_CURVE('',#148,#147,#74,.T.);
#179=EDGE_CURVE('',#148,#149,#75,.T.);
#180=EDGE_CURVE('',#144,#149,#76,.T.);
#181=EDGE_CURVE('',#146,#150,#77,.T.);
#182=EDGE_CURVE('',#150,#151,#78,.T.);
#183=EDGE_CURVE('',#151,#152,#79,.T.);
#184=EDGE_CURVE('',#152,#153,#80,.T.);
#185=EDGE_CURVE('',#153,#154,#81,.T.);
#186=EDGE_CURVE('',#154,#155,#82,.T.);
#187=EDGE_CURVE('',#155,#148,#83,.T.);
#188=EDGE_CURVE('',#156,#151,#84,.T.);
#189=EDGE_CURVE('',#157,#156,#85,.T.);
#190=EDGE_CURVE('',#152,#157,#86,.T.);
#191=EDGE_CURVE('',#158,#157,#87,.T.);
#192=EDGE_CURVE('',#153,#158,#88,.T.);
#193=EDGE_CURVE('',#159,#158,#89,.T.);
#194=EDGE_CURVE('',#154,#159,#90,.T.);
#195=EDGE_CURVE('',#160,#159,#91,.T.);
#196=EDGE_CURVE('',#155,#160,#92,.T.);
#197=EDGE_CURVE('',#149,#160,#93,.T.);
#198=EDGE_CURVE('',#161,#145,#94,.T.);
#199=EDGE_CURVE('',#150,#161,#95,.T.);
#200=EDGE_CURVE('',#156,#161,#96,.T.);
#201=ORIENTED_EDGE('',*,*,#162,.F.);
#202=ORIENTED_EDGE('',*,*,#163,.F.);
#203=ORIENTED_EDGE('',*,*,#164,.F.);
#204=ORIENTED_EDGE('',*,*,#165,.T.);
#205=ORIENTED_EDGE('',*,*,#166,.F.);
#206=ORIENTED_EDGE('',*,*,#165,.F.);
#207=ORIENTED_EDGE('',*,*,#167,.F.);
#208=ORIENTED_EDGE('',*,*,#168,.T.);
#209=ORIENTED_EDGE('',*,*,#169,.F.);
#210=ORIENTED_EDGE('',*,*,#168,.F.);
#211=ORIENTED_EDGE('',*,*,#170,.F.);
#212=ORIENTED_EDGE('',*,*,#171,.T.);
#213=ORIENTED_EDGE('',*,*,#172,.F.);
#214=ORIENTED_EDGE('',*,*,#171,.F.);
#215=ORIENTED_EDGE('',*,*,#173,.F.);
#216=ORIENTED_EDGE('',*,*,#163,.T.);
#217=ORIENTED_EDGE('',*,*,#174,.T.);
#218=ORIENTED_EDGE('',*,*,#175,.T.);
#219=ORIENTED_EDGE('',*,*,#176,.T.);
#220=ORIENTED_EDGE('',*,*,#177,.T.);
#221=ORIENTED_EDGE('',*,*,#177,.F.);
#222=ORIENTED_EDGE('',*,*,#178,.F.);
#223=ORIENTED_EDGE('',*,*,#179,.T.);
#224=ORIENTED_EDGE('',*,*,#180,.F.);
#225=ORIENTED_EDGE('',*,*,#176,.F.);
#226=ORIENTED_EDGE('',*,*,#181,.T.);
#227=ORIENTED_EDGE('',*,*,#182,.T.);
#228=ORIENTED_EDGE('',*,*,#183,.T.);
#229=ORIENTED_EDGE('',*,*,#184,.T.);
#230=ORIENTED_EDGE('',*,*,#185,.T.);
#231=ORIENTED_EDGE('',*,*,#186,.T.);
#232=ORIENTED_EDGE('',*,*,#187,.T.);
#233=ORIENTED_EDGE('',*,*,#178,.T.);
#234=ORIENTED_EDGE('',*,*,#188,.F.);
#235=ORIENTED_EDGE('',*,*,#189,.F.);
#236=ORIENTED_EDGE('',*,*,#190,.F.);
#237=ORIENTED_EDGE('',*,*,#183,.F.);
#238=ORIENTED_EDGE('',*,*,#190,.T.);
#239=ORIENTED_EDGE('',*,*,#191,.F.);
#240=ORIENTED_EDGE('',*,*,#192,.F.);
#241=ORIENTED_EDGE('',*,*,#184,.F.);
#242=ORIENTED_EDGE('',*,*,#192,.T.);
#243=ORIENTED_EDGE('',*,*,#193,.F.);
#244=ORIENTED_EDGE('',*,*,#194,.F.);
#245=ORIENTED_EDGE('',*,*,#185,.F.);
#246=ORIENTED_EDGE('',*,*,#169,.T.);
#247=ORIENTED_EDGE('',*,*,#172,.T.);
#248=ORIENTED_EDGE('',*,*,#162,.T.);
#249=ORIENTED_EDGE('',*,*,#166,.T.);
#250=ORIENTED_EDGE('',*,*,#194,.T.);
#251=ORIENTED_EDGE('',*,*,#195,.F.);
#252=ORIENTED_EDGE('',*,*,#196,.F.);
#253=ORIENTED_EDGE('',*,*,#186,.F.);
#254=ORIENTED_EDGE('',*,*,#196,.T.);
#255=ORIENTED_EDGE('',*,*,#197,.F.);
#256=ORIENTED_EDGE('',*,*,#179,.F.);
#257=ORIENTED_EDGE('',*,*,#187,.F.);
#258=ORIENTED_EDGE('',*,*,#175,.F.);
#259=ORIENTED_EDGE('',*,*,#198,.F.);
#260=ORIENTED_EDGE('',*,*,#199,.F.);
#261=ORIENTED_EDGE('',*,*,#181,.F.);
#262=ORIENTED_EDGE('',*,*,#170,.T.);
#263=ORIENTED_EDGE('',*,*,#167,.T.);
#264=ORIENTED_EDGE('',*,*,#164,.T.);
#265=ORIENTED_EDGE('',*,*,#173,.T.);
#266=ORIENTED_EDGE('',*,*,#199,.T.);
#267=ORIENTED_EDGE('',*,*,#200,.F.);
#268=ORIENTED_EDGE('',*,*,#188,.T.);
#269=ORIENTED_EDGE('',*,*,#182,.F.);
#270=ORIENTED_EDGE('',*,*,#174,.F.);
#271=ORIENTED_EDGE('',*,*,#180,.T.);
#272=ORIENTED_EDGE('',*,*,#197,.T.);
#273=ORIENTED_EDGE('',*,*,#195,.T.);
#274=ORIENTED_EDGE('',*,*,#193,.T.);
#275=ORIENTED_EDGE('',*,*,#191,.T.);
#276=ORIENTED_EDGE('',*,*,#189,.T.);
#277=ORIENTED_EDGE('',*,*,#200,.T.);
#278=ORIENTED_EDGE('',*,*,#198,.T.);
#279=CYLINDRICAL_SURFACE('',#316,4.25);
#280=CYLINDRICAL_SURFACE('',#320,4.25);
#281=ADVANCED_FACE('',(#30),#279,.F.);
#282=ADVANCED_FACE('',(#31),#17,.F.);
#283=ADVANCED_FACE('',(#32),#280,.F.);
#284=ADVANCED_FACE('',(#33),#18,.F.);
#285=ADVANCED_FACE('',(#34),#19,.T.);
#286=ADVANCED_FACE('',(#35),#20,.T.);
#287=ADVANCED_FACE('',(#36),#21,.T.);
#288=ADVANCED_FACE('',(#37),#22,.T.);
#289=ADVANCED_FACE('',(#38),#23,.T.);
#290=ADVANCED_FACE('',(#39,#15),#24,.T.);
#291=ADVANCED_FACE('',(#40),#25,.T.);
#292=ADVANCED_FACE('',(#41),#26,.T.);
#293=ADVANCED_FACE('',(#42,#16),#27,.T.);
#294=ADVANCED_FACE('',(#43),#28,.T.);
#295=ADVANCED_FACE('',(#44),#29,.T.);
#296=CLOSED_SHELL('',(#281,#282,#283,#284,#285,#286,#287,#288,#289,#290,
#291,#292,#293,#294,#295));
#297=DERIVED_UNIT_ELEMENT(#299,1.);
#298=DERIVED_UNIT_ELEMENT(#496,3.);
#299=(
MASS_UNIT()
NAMED_UNIT(*)
SI_UNIT($,.GRAM.)
);
#300=DERIVED_UNIT((#297,#298));
#301=MEASURE_REPRESENTATION_ITEM('density measure',
POSITIVE_RATIO_MEASURE(7.85),#300);
#302=PROPERTY_DEFINITION_REPRESENTATION(#307,#304);
#303=PROPERTY_DEFINITION_REPRESENTATION(#308,#305);
#304=REPRESENTATION('material name',(#306),#493);
#305=REPRESENTATION('density',(#301),#493);
#306=DESCRIPTIVE_REPRESENTATION_ITEM('Stahl','Stahl');
#307=PROPERTY_DEFINITION('material property','material name',#503);
#308=PROPERTY_DEFINITION('material property','density of part',#503);
#309=DATE_TIME_ROLE('creation_date');
#310=APPLIED_DATE_AND_TIME_ASSIGNMENT(#311,#309,(#503));
#311=DATE_AND_TIME(#312,#313);
#312=CALENDAR_DATE(2019,2,9);
#313=LOCAL_TIME(7,19,26.,#314);
#314=COORDINATED_UNIVERSAL_TIME_OFFSET(0,0,.BEHIND.);
#315=AXIS2_PLACEMENT_3D('placement',#410,#335,#336);
#316=AXIS2_PLACEMENT_3D('',#411,#337,#338);
#317=AXIS2_PLACEMENT_3D('',#414,#339,#340);
#318=AXIS2_PLACEMENT_3D('',#418,#342,#343);
#319=AXIS2_PLACEMENT_3D('',#420,#345,#346);
#320=AXIS2_PLACEMENT_3D('',#426,#350,#351);
#321=AXIS2_PLACEMENT_3D('',#428,#352,#353);
#322=AXIS2_PLACEMENT_3D('',#430,#354,#355);
#323=AXIS2_PLACEMENT_3D('',#432,#357,#358);
#324=AXIS2_PLACEMENT_3D('',#435,#361,#362);
#325=AXIS2_PLACEMENT_3D('',#444,#367,#368);
#326=AXIS2_PLACEMENT_3D('',#450,#372,#373);
#327=AXIS2_PLACEMENT_3D('',#464,#381,#382);
#328=AXIS2_PLACEMENT_3D('',#470,#386,#387);
#329=AXIS2_PLACEMENT_3D('',#474,#390,#391);
#330=AXIS2_PLACEMENT_3D('',#478,#394,#395);
#331=AXIS2_PLACEMENT_3D('',#482,#398,#399);
#332=AXIS2_PLACEMENT_3D('',#484,#401,#402);
#333=AXIS2_PLACEMENT_3D('',#488,#405,#406);
#334=AXIS2_PLACEMENT_3D('',#490,#408,#409);
#335=DIRECTION('axis',(0.,0.,1.));
#336=DIRECTION('refdir',(1.,0.,0.));
#337=DIRECTION('center_axis',(0.,0.,-1.));
#338=DIRECTION('ref_axis',(1.,0.,0.));
#339=DIRECTION('center_axis',(0.,-4.28578741123682E-16,1.));
#340=DIRECTION('ref_axis',(1.,0.,0.));
#341=DIRECTION('',(0.,0.,-1.));
#342=DIRECTION('center_axis',(0.,0.,-1.));
#343=DIRECTION('ref_axis',(1.,0.,0.));
#344=DIRECTION('',(0.,0.,-1.));
#345=DIRECTION('center_axis',(-1.,0.,0.));
#346=DIRECTION('ref_axis',(0.,1.,0.));
#347=DIRECTION('',(0.,-1.,-4.28578741123682E-16));
#348=DIRECTION('',(0.,1.,0.));
#349=DIRECTION('',(0.,0.,-1.));
#350=DIRECTION('center_axis',(0.,0.,-1.));
#351=DIRECTION('ref_axis',(-1.,0.,0.));
#352=DIRECTION('center_axis',(0.,-4.28578741123682E-16,1.));
#353=DIRECTION('ref_axis',(-1.,0.,0.));
#354=DIRECTION('center_axis',(0.,0.,-1.));
#355=DIRECTION('ref_axis',(-1.,0.,0.));
#356=DIRECTION('',(0.,0.,-1.));
#357=DIRECTION('center_axis',(1.,3.41607084500048E-16,0.));
#358=DIRECTION('ref_axis',(3.41607084500048E-16,-1.,0.));
#359=DIRECTION('',(-3.41607084500048E-16,1.,4.28578741123682E-16));
#360=DIRECTION('',(3.41607084500048E-16,-1.,0.));
#361=DIRECTION('center_axis',(0.,-0.707106781186548,0.707106781186547));
#362=DIRECTION('ref_axis',(1.,0.,0.));
#363=DIRECTION('',(0.,0.707106781186547,0.707106781186548));
#364=DIRECTION('',(-1.,0.,0.));
#365=DIRECTION('',(0.,-0.707106781186547,-0.707106781186548));
#366=DIRECTION('',(1.,0.,0.));
#367=DIRECTION('center_axis',(0.,-1.,1.40534560079134E-16));
#368=DIRECTION('ref_axis',(0.,-1.40534560079134E-16,-1.));
#369=DIRECTION('',(0.,1.40534560079134E-16,1.));
#370=DIRECTION('',(1.,0.,0.));
#371=DIRECTION('',(0.,-1.40534560079134E-16,-1.));
#372=DIRECTION('center_axis',(-1.,0.,0.));
#373=DIRECTION('ref_axis',(0.,0.,1.));
#374=DIRECTION('',(0.,1.,0.));
#375=DIRECTION('',(0.,2.81069120158268E-16,-1.));
#376=DIRECTION('',(0.,-1.,0.));
#377=DIRECTION('',(0.,3.21803775253669E-16,-1.));
#378=DIRECTION('',(0.,-1.,-4.28578741123682E-16));
#379=DIRECTION('',(0.,0.,-1.));
#380=DIRECTION('',(0.,-1.,-1.9478652511711E-16));
#381=DIRECTION('center_axis',(0.,0.,-1.));
#382=DIRECTION('ref_axis',(0.,1.,0.));
#383=DIRECTION('',(-1.,0.,0.));
#384=DIRECTION('',(0.,1.,0.));
#385=DIRECTION('',(1.,0.,0.));
#386=DIRECTION('center_axis',(0.,1.,3.21803775253669E-16));
#387=DIRECTION('ref_axis',(0.,-3.21803775253669E-16,1.));
#388=DIRECTION('',(0.,-3.21803775253669E-16,1.));
#389=DIRECTION('',(1.,0.,0.));
#390=DIRECTION('center_axis',(0.,4.28578741123682E-16,-1.));
#391=DIRECTION('ref_axis',(0.,1.,4.28578741123682E-16));
#392=DIRECTION('',(0.,1.,4.28578741123682E-16));
#393=DIRECTION('',(1.,0.,0.));
#394=DIRECTION('center_axis',(0.,1.,0.));
#395=DIRECTION('ref_axis',(0.,0.,1.));
#396=DIRECTION('',(0.,0.,1.));
#397=DIRECTION('',(1.,0.,0.));
#398=DIRECTION('center_axis',(0.,1.9478652511711E-16,-1.));
#399=DIRECTION('ref_axis',(0.,1.,1.9478652511711E-16));
#400=DIRECTION('',(0.,1.,1.9478652511711E-16));
#401=DIRECTION('center_axis',(0.,0.,1.));
#402=DIRECTION('ref_axis',(0.,-1.,0.));
#403=DIRECTION('',(0.,-1.,0.));
#404=DIRECTION('',(1.,0.,0.));
#405=DIRECTION('center_axis',(0.,1.,2.81069120158268E-16));
#406=DIRECTION('ref_axis',(0.,-2.81069120158268E-16,1.));
#407=DIRECTION('',(0.,-2.81069120158268E-16,1.));
#408=DIRECTION('center_axis',(1.,0.,0.));
#409=DIRECTION('ref_axis',(0.,0.,-1.));
#410=CARTESIAN_POINT('',(0.,0.,0.));
#411=CARTESIAN_POINT('Origin',(2.22044604925031E-15,-3.5,15.8));
#412=CARTESIAN_POINT('',(4.25,-3.5,1.));
#413=CARTESIAN_POINT('',(-4.25,-3.5,1.));
#414=CARTESIAN_POINT('Origin',(2.22044604925031E-15,-3.5,0.999999999999996));
#415=CARTESIAN_POINT('',(4.25,-3.5,15.8));
#416=CARTESIAN_POINT('',(4.25,-3.5,15.8));
#417=CARTESIAN_POINT('',(-4.25,-3.5,15.8));
#418=CARTESIAN_POINT('Origin',(2.22044604925031E-15,-3.5,15.8));
#419=CARTESIAN_POINT('',(-4.25,-3.5,15.8));
#420=CARTESIAN_POINT('Origin',(-4.25,-10.,15.8));
#421=CARTESIAN_POINT('',(-4.25,-10.,0.999999999999999));
#422=CARTESIAN_POINT('',(-4.25,-12.5,0.999999999999996));
#423=CARTESIAN_POINT('',(-4.25,-10.,15.8));
#424=CARTESIAN_POINT('',(-4.25,5.,15.8));
#425=CARTESIAN_POINT('',(-4.25,-10.,15.8));
#426=CARTESIAN_POINT('Origin',(0.,-10.,15.8));
#427=CARTESIAN_POINT('',(4.25,-10.,0.999999999999999));
#428=CARTESIAN_POINT('Origin',(0.,-10.,0.999999999999996));
#429=CARTESIAN_POINT('',(4.25,-10.,15.8));
#430=CARTESIAN_POINT('Origin',(0.,-10.,15.8));
#431=CARTESIAN_POINT('',(4.25,-10.,15.8));
#432=CARTESIAN_POINT('Origin',(4.25,-3.5,15.8));
#433=CARTESIAN_POINT('',(4.25,-9.25,0.999999999999998));
#434=CARTESIAN_POINT('',(4.25,8.25,15.8));
#435=CARTESIAN_POINT('Origin',(0.,-19.,14.8));
#436=CARTESIAN_POINT('',(15.,-20.,13.8));
#437=CARTESIAN_POINT('',(15.,-18.,15.8));
#438=CARTESIAN_POINT('',(15.,-15.975,17.825));
#439=CARTESIAN_POINT('',(-15.,-18.,15.8));
#440=CARTESIAN_POINT('',(0.,-18.,15.8));
#441=CARTESIAN_POINT('',(-15.,-20.,13.8));
#442=CARTESIAN_POINT('',(-15.,-15.975,17.825));
#443=CARTESIAN_POINT('',(0.,-20.,13.8));
#444=CARTESIAN_POINT('Origin',(0.,-20.,15.8));
#445=CARTESIAN_POINT('',(-15.,-20.,-2.22044604925031E-15));
#446=CARTESIAN_POINT('',(-15.,-20.,15.8));
#447=CARTESIAN_POINT('',(15.,-20.,-2.22044604925031E-15));
#448=CARTESIAN_POINT('',(0.,-20.,-2.22293352828885E-15));
#449=CARTESIAN_POINT('',(15.,-20.,15.8));
#450=CARTESIAN_POINT('Origin',(-15.,-0.795878136200718,8.69587813620072));
#451=CARTESIAN_POINT('',(-15.,20.,15.8));
#452=CARTESIAN_POINT('',(-15.,20.,15.8));
#453=CARTESIAN_POINT('',(-15.,20.,7.90000000000001));
#454=CARTESIAN_POINT('',(-15.,20.,7.90000000000001));
#455=CARTESIAN_POINT('',(-15.,12.2,7.90000000000001));
#456=CARTESIAN_POINT('',(-15.,12.2,7.90000000000001));
#457=CARTESIAN_POINT('',(-15.,12.2,1.00000000000001));
#458=CARTESIAN_POINT('',(-15.,12.2,1.00000000000001));
#459=CARTESIAN_POINT('',(-15.,-15.,0.999999999999995));
#460=CARTESIAN_POINT('',(-15.,-15.,0.999999999999995));
#461=CARTESIAN_POINT('',(-15.,-15.,-1.11022302462516E-15));
#462=CARTESIAN_POINT('',(-15.,-15.,-1.2490009027033E-15));
#463=CARTESIAN_POINT('',(-15.,-20.,-2.22293352828885E-15));
#464=CARTESIAN_POINT('Origin',(0.,12.2,7.90000000000001));
#465=CARTESIAN_POINT('',(15.,20.,7.90000000000001));
#466=CARTESIAN_POINT('',(0.,20.,7.90000000000001));
#467=CARTESIAN_POINT('',(15.,12.2,7.90000000000001));
#468=CARTESIAN_POINT('',(15.,12.2,7.90000000000001));
#469=CARTESIAN_POINT('',(0.,12.2,7.90000000000001));
#470=CARTESIAN_POINT('Origin',(0.,12.2,1.00000000000001));
#471=CARTESIAN_POINT('',(15.,12.2,1.00000000000001));
#472=CARTESIAN_POINT('',(15.,12.2,1.00000000000001));
#473=CARTESIAN_POINT('',(0.,12.2,1.00000000000001));
#474=CARTESIAN_POINT('Origin',(0.,-15.,0.999999999999995));
#475=CARTESIAN_POINT('',(15.,-15.,0.999999999999995));
#476=CARTESIAN_POINT('',(15.,-15.,0.999999999999995));
#477=CARTESIAN_POINT('',(0.,-15.,0.999999999999995));
#478=CARTESIAN_POINT('Origin',(0.,-15.,-1.2490009027033E-15));
#479=CARTESIAN_POINT('',(15.,-15.,-1.11022302462516E-15));
#480=CARTESIAN_POINT('',(15.,-15.,-1.2490009027033E-15));
#481=CARTESIAN_POINT('',(0.,-15.,-1.2490009027033E-15));
#482=CARTESIAN_POINT('Origin',(0.,-20.,-2.22293352828885E-15));
#483=CARTESIAN_POINT('',(15.,-20.,-2.22293352828885E-15));
#484=CARTESIAN_POINT('Origin',(0.,20.,15.8));
#485=CARTESIAN_POINT('',(15.,20.,15.8));
#486=CARTESIAN_POINT('',(15.,20.,15.8));
#487=CARTESIAN_POINT('',(0.,20.,15.8));
#488=CARTESIAN_POINT('Origin',(0.,20.,7.90000000000001));
#489=CARTESIAN_POINT('',(15.,20.,7.90000000000001));
#490=CARTESIAN_POINT('Origin',(15.,-0.795878136200718,8.69587813620072));
#491=UNCERTAINTY_MEASURE_WITH_UNIT(LENGTH_MEASURE(0.01),#495,
'DISTANCE_ACCURACY_VALUE',
'Maximum model space distance between geometric entities at asserted c
onnectivities');
#492=UNCERTAINTY_MEASURE_WITH_UNIT(LENGTH_MEASURE(0.01),#495,
'DISTANCE_ACCURACY_VALUE',
'Maximum model space distance between geometric entities at asserted c
onnectivities');
#493=(
GEOMETRIC_REPRESENTATION_CONTEXT(3)
GLOBAL_UNCERTAINTY_ASSIGNED_CONTEXT((#491))
GLOBAL_UNIT_ASSIGNED_CONTEXT((#495,#498,#497))
REPRESENTATION_CONTEXT('','3D')
);
#494=(
GEOMETRIC_REPRESENTATION_CONTEXT(3)
GLOBAL_UNCERTAINTY_ASSIGNED_CONTEXT((#492))
GLOBAL_UNIT_ASSIGNED_CONTEXT((#495,#498,#497))
REPRESENTATION_CONTEXT('','3D')
);
#495=(
LENGTH_UNIT()
NAMED_UNIT(*)
SI_UNIT(.MILLI.,.METRE.)
);
#496=(
LENGTH_UNIT()
NAMED_UNIT(*)
SI_UNIT(.CENTI.,.METRE.)
);
#497=(
NAMED_UNIT(*)
SI_UNIT($,.STERADIAN.)
SOLID_ANGLE_UNIT()
);
#498=(
NAMED_UNIT(*)
PLANE_ANGLE_UNIT()
SI_UNIT($,.RADIAN.)
);
#499=SHAPE_DEFINITION_REPRESENTATION(#500,#501);
#500=PRODUCT_DEFINITION_SHAPE('',$,#503);
#501=SHAPE_REPRESENTATION('',(#315),#493);
#502=PRODUCT_DEFINITION_CONTEXT('part definition',#507,'design');
#503=PRODUCT_DEFINITION('Pratze_3DDruck','Spannpratze_ROTU',#504,#502);
#504=PRODUCT_DEFINITION_FORMATION('',$,#509);
#505=PRODUCT_RELATED_PRODUCT_CATEGORY('Spannpratze_ROTU',
'Spannpratze_ROTU',(#509));
#506=APPLICATION_PROTOCOL_DEFINITION('international standard',
'automotive_design',2009,#507);
#507=APPLICATION_CONTEXT(
'Core Data for Automotive Mechanical Design Process');
#508=PRODUCT_CONTEXT('part definition',#507,'mechanical');
#509=PRODUCT('Pratze_3DDruck','Spannpratze_ROTU',$,(#508));
#510=PRESENTATION_STYLE_ASSIGNMENT((#511));
#511=SURFACE_STYLE_USAGE(.BOTH.,#512);
#512=SURFACE_SIDE_STYLE('',(#513));
#513=SURFACE_STYLE_FILL_AREA(#514);
#514=FILL_AREA_STYLE('',(#515));
#515=FILL_AREA_STYLE_COLOUR('',#516);
#516=COLOUR_RGB('',0.0196078431372549,0.0196078431372549,0.0196078431372549);
ENDSEC;
END-ISO-10303-21;
